#14096  by Billbbill
 Sat Mar 17, 2007 7:54 pm
Either is fine. I wouldn't marry myself to one or the other.

 #14102  by ronster
 Sun Mar 18, 2007 9:11 am
For what its worth I fingerpick the whole tune and play the "song of Gamorah" G7/Am7/G lick more like Gary Davis (search my heart or true religion lick) and the G>C walkup using the higher G note. Makes the walkup stand out.

(/) Slide Up () Slide Down (h) Hammer On (p) Pull Off (b) Bend (r) Release (v) Vibrato

E|-----------------------3-----------------------------------
B|--3--0--1--0-----------------------------------------1-----
G|-----------0-----0-----------0-----0-----0-----0-----------
D|--3--0--2--0--------0-----------------------------2--------
A|--------------------------------0-----2-----3--------------
E|--------------3-----------3--------------------------------
http://www.guitartabcreator.com

 #14113  by Billbbill
 Sun Mar 18, 2007 1:00 pm
Sounds cool. I like.
 #14387  by Mark1
 Sat Mar 24, 2007 7:23 pm
Hello all,
Just wanted to post what I use as the lick going into the bridge. This is what sounds good to me, so it may not suit everybody, but...,.

E|--------------------------
B|--------------0--1--3-----
G|--------0--2--------------
D|--0--2--------------------
A|--------------------------
E|--------------------------

and then the Bm chord

also at the second D chord in the bridge (right after "it don't have to come to you..."; and before "I'm telling you so you can tell..." I add this...

E|--3--4--5-----------------
B|--5--6--7-----------------
G|--5--6--7-----------------
D|--x--x--x-----------------
A|--x--x--x-----------------
E|--x--x--x-----------------

PS - I listen to the "How Sweet it is... " version.

 #14396  by shakedown_04092
 Sun Mar 25, 2007 8:35 am
Would anyone mind posting the song in Code format with the lyrics & the chors? Would be much obliged!