#365  by deadhead_101
 Thu Jun 17, 2004 8:49 pm
does anybody know the fingerpicking pattern jerry uses

 #754  by Clemintine
 Sun Aug 29, 2004 2:25 pm
I too was wondering about this song, and cant believe that no one out there doesnt know this. Somebody please post jerry's acoutic picking part for this beautiful song!

 #18810  by ronster
 Sun Jun 24, 2007 6:29 pm
Since you said please, it goes something like this. See the tab for the complete chords and words:


E|--G intro-----------------G(Cold)----F(water)----------Dm(trade)------1--G(daughter)
B|--------0-----------0-----------0----1-----------------------3--------------
G|--------0-----------0-----------0----------2-----2--------2--------2-----0--0
D|-----0-----0-----0-----0-----0-----0----3-----------3--0--------0-----------0---0--
A|-------------------------------------------------------------------------2-------
E|--3-----------3-----------3----------1--------1-------------------------------3--
http://www.guitartabcreator.com
 #64006  by prephippie
 Thu Jul 30, 2009 6:19 pm
Thanks for posting that ronster. Can you tab out the "Hey Tom Banjo, hey a laurel" line...Please? :hail:
 #64029  by ronster
 Fri Jul 31, 2009 6:33 pm
Something like this
E|--D-----------2-----------A------------------------
B|--------3--------3-----3-----------2h3r2-----------
G|-----2-----2--------2-----------2---------2-----2--
D|--0--------------------------2---------------2-----
A|--------------------------0------------------------
E|---------Hey----------Tom-Banjo--------------------
 #64045  by prephippie
 Sat Aug 01, 2009 1:39 pm
Thank you! I can't wait to try it.

Edited to say - Hey, you switched tunings on us. I was looking for these:
C_______ G_____C___ G
Hey, Tom Banjo, hey a laurel

Please?
 #64047  by ronster
 Sat Aug 01, 2009 2:47 pm
oops
E|--C-----------0-----------G------------------------
B|--------1--------1-----1-----------0h1r0-----------
G|-----0-----0--------0-----------0---------0-----0--
D|-----------------------------0---------------0-----
A|--3-----------------------------------------------
E|---------Hey------------3--------------------------
 #64048  by Billbbill
 Sat Aug 01, 2009 2:49 pm
prephippie wrote:Thank you! I can't wait to try it.

Edited to say - Hey, you switched tunings on us. I was looking for these:
C_______ G_____C___ G
Hey, Tom Banjo, hey a laurel

Please?
I know I haven't been in this conversation and I definitely don't want to come off like a jerk but you should learn to transpose. If your aim is to become a musician whether professional or not it is a must. In this case just drop the notes cited by ronster a full step (2 frets) back to go from the one key to the other. And adjust positioning as seen fit. Transposing is a stepping stone toward furthering your musical education.

My man ronster beat me to the punch!

Ronster - You're a gentleman and a scholar!
 #64052  by prephippie
 Sat Aug 01, 2009 5:45 pm
Thanks ronster. 8)

You're right Bill. I can transpose the chords fine, but I wasn't sure about the picking pattern.