Stop that Train

Learn how to play Stop that Train on the rukind.com forums Stop That Train

Stop That Train

Jerry Garcia Band

(Tosh)




Thanks to Paul Jantzen (and Winston Campbell) for contributing this one.


Intro
Outro

Intro

(^) Slide Up  (\) Slide Down  (h) Hammer On  (p) Pull Off  (b) Bend

MP3 Tab Support Audio (10K)

MIDI Tab Support Audio (soptha1.mid)

   G                   C    D  G
E -------------------------------|
B -------------------------------|
G -7^9--7------------------------|
D ---------9--7--5-----5--5^7--5-|
A ------------------7------------|
E -------------------------------|

Return To Base

Outro

(^) Slide Up  (\) Slide Down  (h) Hammer On  (p) Pull Off  (b) Bend

MP3 Tab Support Audio (23K)

MIDI Tab Support Audio (stoptha2.mid)

   G                   C    D  G
E -------------------------------|
B -------------------------------|
G -7^9--7------------------------|
D ---------9--7--5-----5--5^7--5-|
A ------------------7------------|
E -------------------------------|

G                   C     D  G
E --------------------------------|
B --------------------------------|
G -7^9--7-------------------------|
D ---------9--7--5---------9^7--5-|
A ------------------7--10---------|
E --------------------------------|

Return To Base

This File contains merely an interpretation of the represented musical piece.
It is not intended to replace any commercially available publishing, nor is it
guaranteed to represent an exact transcription of any commercially or otherwise released
piece.
Ed Bick's Tab Archive